SMPN7 Bogor Forum

Welcome to login screen SMPN7 Bogor. please insert your ID and Password

Tempat Diskusi Anak - Anak SMPN7 Bogor

Affiliates

Navigation

Latest topics

» Penyebab WW 2.
Thu Apr 22, 2010 3:24 pm by zoids

» Siapa guru Matematika kesukaan anda! Menurut Hati nurani !
Thu Apr 22, 2010 3:22 pm by zoids

» Kalian yg Olahraga suka ma apa ???
Thu Apr 22, 2010 3:20 pm by zoids

» Maintenace dan Upgrade Server
Wed Mar 24, 2010 11:58 am by mage95

» Thread Absensi ..
Mon Mar 15, 2010 9:13 pm by mage95

» RF Online Room
Sat Mar 06, 2010 10:46 pm by rizki barkati

» Maintenace Mingguan
Wed Jan 27, 2010 11:53 am by mage95

» SMPN7 Bogor Free Web Hosting
Sat Jan 16, 2010 7:01 pm by mage95

» NEWS: Server Maintenace 16-01-10
Fri Jan 15, 2010 2:17 pm by mage95

Navigation

Who is online?

In total there is 1 user online :: 0 Registered, 0 Hidden and 1 Guest

None


[ View the whole list ]


Most users ever online was 9 on Tue Aug 25, 2009 4:14 pm


    [Sharing] Lyrics, Chords, Tablature, etc.

    Share
    avatar
    -rizuki-
    Admin
    Admin

    Number of posts : 75
    Age : 26
    Lokasi : In Front of My Computer Watching the Whole D*mn World
    Registration date : 2008-06-11

    [Sharing] Lyrics, Chords, Tablature, etc.

    Post  -rizuki- on Sun Jun 15, 2008 1:57 pm

    buat sharing aja yah ..
    yang punya lirik lagu / tablatur, atau kord bagus, post disini ..
    ato bisa juga request disini ..
    avatar
    Loonz
    Active Poster
    Active Poster

    Number of posts : 42
    Age : 25
    Lokasi : bgor .. koTa sjuTa jabLay !!
    Registration date : 2008-06-13

    gw mnta liriknya alesana dunc yg ambrosia ..

    Post  Loonz on Sun Jun 15, 2008 5:49 pm

    w mnta liriknya alesana yg ambrosia dunk ..

    ad yg pnya ga ??
    avatar
    Charven_Sajalah
    Advanced Poster
    Advanced Poster

    Number of posts : 112
    Age : 107
    Lokasi : Daerah Terpencil Yang Tak Akan Pernah Ditemukan
    Registration date : 2008-06-13

    Re: [Sharing] Lyrics, Chords, Tablature, etc.

    Post  Charven_Sajalah on Sun Jun 15, 2008 8:23 pm

    Loonz wrote:w mnta liriknya alesana yg ambrosia dunk ..

    ad yg pnya ga ??

    gw ada ne... tp tabulasi!

    bisa baca gk lw?

    3 kali! kl gk sala!
    e|----------------------------------------------------------------------------------|
    B|----------------------------------------------------------------------------------|
    G|----------------------------------------------------------------------------------|
    D|----------------------------------------------------------------------------------|
    A|-10h0--8h0--7h0*--7h0-3h0-3h0*-10h0-8h0-7h0-8h0-7h0-3h0-3h0*--|
    D|----------------------------------------------------------------------------------|

    Ritemnya :
    e|-----------------------------------------------------------------|
    B|-----------------------------------------------------------------|
    G|-----------------------------------------------------------------|
    D|--5*------------------------------10-8-7-0*-------------------|
    A|--5*------------------------------10-8-7-0*-------------------|
    D|--5*------------------------------10-8-7-0*-------------------|

    e|------------10-------------------------------------------------|
    B|---8-10-11-----------------------------------------------------|
    G|-----------------------------------------------------------------|
    D|-----------------------------------------------------------------|
    A|-----------------------------------------------------------------|
    D|-----------------------------------------------------------------|

    e|------------------------------------------------------------------|
    B|------------------------------------------------------------------|
    G|--------------------------7---------------------------------------|
    D|-0-0-0-0-0-0-------5-7-8--------------------------------------|
    A|-0-0-0-0-0-0----------------------------------------------------|
    D|-0-0-0-0-0-0----------------------------------------------------|
    PM............

    kl bisa tes ni tabulasi sambil denger lagunya! itung2 disamain!
    slamet menikmati!
    avatar
    -rizuki-
    Admin
    Admin

    Number of posts : 75
    Age : 26
    Lokasi : In Front of My Computer Watching the Whole D*mn World
    Registration date : 2008-06-11

    Re: [Sharing] Lyrics, Chords, Tablature, etc.

    Post  -rizuki- on Sun Jun 15, 2008 8:40 pm

    Charven_Sajalah wrote:
    Loonz wrote:w mnta liriknya alesana yg ambrosia dunk ..

    ad yg pnya ga ??

    gw ada ne... tp tabulasi!

    as request,
    Alesana - Ambrosia Lyrics:
    Code:

    a touch of poison seals my fate
    the dawn echoes the night with my glory...the sun himself honors me

    once king of roses, now lord of gold
    blessed with the gift of gilded touch
    the Gods themselves envy my hand
    fate wields its knife to cut the thread

    I curse the day my dream became my descent
    suddenly I long for you, my only love

    in my perfection I have no want
    a folly as fatal as sin
    yet eyes still glint with greed untold
    has now become the end of me

    I curse the day my dream became my descent
    suddenly I long for you, my only love

    have I not earned this, the gift of beauty within?
    how selfish were the Gods to keep their riches from my rightful treasure?
    I truly have become one of them...my fatal flaw

    (Repeated)
    oh yeah! Ive got her hook, line, and sinker!
    thanks to me, shes her own new necklace!

    now shes good as gold!

    (Repeated)
    I curse the day my dream became my descent
    suddenly I long for you, my only love

    ...cut the thread...

    nemu di Google, gw aja gak tau lagunya ..
    avatar
    Charven_Sajalah
    Advanced Poster
    Advanced Poster

    Number of posts : 112
    Age : 107
    Lokasi : Daerah Terpencil Yang Tak Akan Pernah Ditemukan
    Registration date : 2008-06-13

    Re: [Sharing] Lyrics, Chords, Tablature, etc.

    Post  Charven_Sajalah on Mon Jun 16, 2008 6:35 am

    -rizuki- wrote:
    Charven_Sajalah wrote:
    Loonz wrote:w mnta liriknya alesana yg ambrosia dunk ..

    ad yg pnya ga ??

    gw ada ne... tp tabulasi!

    as request,
    Alesana - Ambrosia Lyrics:
    Code:

    a touch of poison seals my fate
    the dawn echoes the night with my glory...the sun himself honors me

    once king of roses, now lord of gold
    blessed with the gift of gilded touch
    the Gods themselves envy my hand
    fate wields its knife to cut the thread

    I curse the day my dream became my descent
    suddenly I long for you, my only love

    in my perfection I have no want
    a folly as fatal as sin
    yet eyes still glint with greed untold
    has now become the end of me

    I curse the day my dream became my descent
    suddenly I long for you, my only love

    have I not earned this, the gift of beauty within?
    how selfish were the Gods to keep their riches from my rightful treasure?
    I truly have become one of them...my fatal flaw

    (Repeated)
    oh yeah! Ive got her hook, line, and sinker!
    thanks to me, shes her own new necklace!

    now shes good as gold!

    (Repeated)
    I curse the day my dream became my descent
    suddenly I long for you, my only love

    ...cut the thread...

    nemu di Google, gw aja gak tau lagunya ..

    sama2! itu kan band jadul! alirannya imo, metal, rock dLl
    kgk ngerti lyricnya gw! gw kasi chordnya aja! kan wa gitarist bkn vokalist!
    avatar
    Charven_Sajalah
    Advanced Poster
    Advanced Poster

    Number of posts : 112
    Age : 107
    Lokasi : Daerah Terpencil Yang Tak Akan Pernah Ditemukan
    Registration date : 2008-06-13

    Re: [Sharing] Lyrics, Chords, Tablature, etc.

    Post  Charven_Sajalah on Mon Jun 16, 2008 6:47 am

    tp lumayan suka sih!~ lagunya hampir sama kaya a7x tp lebih bgs a7x lah! a7x is mine
    avatar
    -rizuki-
    Admin
    Admin

    Number of posts : 75
    Age : 26
    Lokasi : In Front of My Computer Watching the Whole D*mn World
    Registration date : 2008-06-11

    Re: [Sharing] Lyrics, Chords, Tablature, etc.

    Post  -rizuki- on Mon Jun 16, 2008 7:07 am

    Charven_Sajalah wrote:
    sama2! itu kan band jadul! alirannya imo, metal, rock dLl
    kgk ngerti lyricnya gw! gw
    kasi chordnya aja! kan wa gitarist bkn vokalist!

    lah kan die nya minta lirik ...

    Loonz wrote:w mnta liriknya alesana yg ambrosia dunk ..

    ad yg pnya ga ??
    avatar
    -rizuki-
    Admin
    Admin

    Number of posts : 75
    Age : 26
    Lokasi : In Front of My Computer Watching the Whole D*mn World
    Registration date : 2008-06-11

    AATB

    Post  -rizuki- on Mon Jun 16, 2008 7:12 am

    Share aja neeh ..

    ANDRA & THE BACKBONE - SEMPURNA

    Code:

    >> Andra and the backbone pas rekaman pake nada dasar E,
    >> tapi kalo manggung biasanya pake nada dasar D
    >> mungkin biar vokalnya gak tinggi2 amat, dan maen
    >> gitarnya lebih gampang.
    >> Kalo emang maksa harus pake nada dasar E, bisa diakalin
    >> pake penjepit di kolom/fret ke-2,
    >> so maennya kaya nada dasar D, tp suaraya nada dasar E
    >> :)


    >> Overall chord dasarnya kaya gini:

    [intro] D D

    [verse] D Bm G-A Bm

    [bridge] G A Bm Bm G A
             
    [chorus] D A G D A G Bm F#m G Bm F#m G E D Bm



    >> Nah, tab buat masing2 chord kaya gini nih..

    >> ini tab bagian intro:

      [D]
    E -------------------------------------------------
    B -3-------3---2-------2---0-------0---2-------2---
    G -----2-----------2-----------2-----------2-------
    D -0-0---0---0-0-0---0---0-0-0---0---0-0-0---0---0-
    A -------------------------------------------------
    E -------------------------------------------------

      [D]
    E -------------------------------------------------
    B -3-------3---2-------2---0-------0---2-------2---
    G -----2-----------2-----------2-----------2-------
    D -0-0---0---0-0-0---0---0-0-0---0---0-0-0---0---0-
    A -------------------------------------------------
    E -------------------------------------------------


    >> ini tab bagian verse (lagu):

      [D]
    E -------------------------------------------------
    B -3-------3---2-------2---0-------0---2-------2---
    G -----2-----------2-----------2-----------2-------
    D -0-0---0---0-0-0---0---0-0-0---0---0-0-0---0---0-
    A -------------------------------------------------
    E -------------------------------------------------

      [Bm]
    E -------------------------------------------------
    B -3-------3---2-------2---0-------0---2-------2---
    G -----2-----------2-----------2-----------2-------
    D -------------------------------------------------
    A -2-2---2---2-2-2---2---2-2-2---2---2-2-2---2---2-
    E -------------------------------------------------

      [G]                    [A]
    E -2-------2---0-------0---2-------2---0-------0---
    B -----3-----------3-----------3-----------3-------
    G -------------------------------------------------
    D -------------------------------------------------
    A -------------------------0-0---0---0-0-0---0---0-
    E -3-3---3---3-3-3---3---3-------------------------

      [Bm]
    E -------------------------------------------------
    B -3-------3---2-------2---0-------0---2-------2---
    G -----2-----------2-----------2-----------2-------
    D -------------------------------------------------
    A -2-2---2---2-2-2---2---2-2-2---2---2-2-2---2---2-
    E -------------------------------------------------


    >> ini tab bagian bridge:

      [G]                    [A]
    E -5-----------5-----------5-----------5-----------
    B -----5-----------5-----------5-----------5-------
    G ---------7-----------7-----------7-----------7---
    D -------------------------------------------------
    A -----------------------0-0-0---0---0-0-0---0---0-
    E -3-3---3---3-3-3---3-----------------------------


      [Bm]
    E -5-----------5-----------5-----------5-----------
    B -----5-----------5-----------5-----------5-------
    G ---------7-----------7-----------7-----------7---
    D -------------------------------------------------
    A -------------------------------------------------
    E -7-7---7---7-7-7---7---7-7-7---7---7-7-7---7---7-

      [G]                    [A]
    E -5-----------5-----------5-----------0-x---------
    B -----5-----------5-----------5---------x---------
    G ---------7-----------7-----------7---6-x---------
    D ---------------------------------------x---------
    A -----------------------0-0-0---0---0-0-x---------
    E -3-3---3---3-3-3---3-------------------x---------



    >> ini tab bagian chorus:

      [D]          [A]          [G]
    E ----------------------------2-----------2------------
    B -3-------3----2h3------2--------3-----------3--------
    G -----2-------------2----------------0-----------0----
    D -0-0---0---0-----------------------------------------
    A --------------0--0---0---0---------------------------
    E ----------------------------3-3---3---3-3-3---3---3--

      [D]          [A]          [G]
    E ----------------------------2-----------2------------
    B -3-------3----2h3------2--------3-----------3--------
    G -----2-------------2----------------0-----------0----
    D -0-0---0---0-----------------------------------------
    A --------------0--0---0---0---------------------------
    E ----------------------------3-3---3---3-3-3---3---3--

      [Bm]        [F#m]        [G]
    E ----------------------------2-----------2------------
    B -3-------3----2h3------2--------3-----------3--------
    G -----2-------------2----------------0-----------0----
    D -----------------------------------------------------
    A -2-2---2---2-----------------------------------------
    E --------------2--2---2---2--3-3---3---3-3-3---3---3--

      [Bm]        [F#m]        [G]          [E]
    E ----------------------------2--------------------2p0-0----
    B -3-------3----2h3------2--------3--------------2-------3--
    G -----2-------------2----------------0--------1------------
    D ----------------------------------------------------------
    A -2-2---2---2-------------------------------2--------------
    E --------------2--2---2---2--3-3---3---3--0----------------

      [D]
    E -------------------------------------------------
    B -3-------3---2-------2---0-------0---2-------2---
    G -----2-----------2-----------2-----------2-------
    D -0-0---0---0-0-0---0---0-0-0---0---0-0-0---0---0-
    A -------------------------------------------------
    E -------------------------------------------------

      [Bm]
    E -------------------------------------------------
    B -3-------3---2-------2---0-------0---2-------2---
    G -----2-----------2-----------2-----------2-------
    D -------------------------------------------------
    A -2-2---2---2-2-2---2---2-2-2---2---2-2-2---2---2-
    E -------------------------------------------------

    http://www.chordfrenzy.com/search.php?id=1016&lirik_kord_lagu=Andra+and+The+Backbone-Sempurna+%5BFull+Tab%5D(chords_lyrics)

    Lumayan buat ngegitar keren + nyanyi di depan cewe !!
    avatar
    Charven_Sajalah
    Advanced Poster
    Advanced Poster

    Number of posts : 112
    Age : 107
    Lokasi : Daerah Terpencil Yang Tak Akan Pernah Ditemukan
    Registration date : 2008-06-13

    Re: [Sharing] Lyrics, Chords, Tablature, etc.

    Post  Charven_Sajalah on Mon Jun 16, 2008 7:48 am

    mungkin jiwa gw sudah jiwa guiarist !
    thx tabsnya wa coba d!
    avatar
    Loonz
    Active Poster
    Active Poster

    Number of posts : 42
    Age : 25
    Lokasi : bgor .. koTa sjuTa jabLay !!
    Registration date : 2008-06-13

    ..

    Post  Loonz on Wed Jun 18, 2008 4:22 pm

    banyu w mnta lirik apology plz ..

    cz w aLEsana bgt
    avatar
    -rizuki-
    Admin
    Admin

    Number of posts : 75
    Age : 26
    Lokasi : In Front of My Computer Watching the Whole D*mn World
    Registration date : 2008-06-11

    Re: [Sharing] Lyrics, Chords, Tablature, etc.

    Post  -rizuki- on Wed Jun 18, 2008 5:00 pm

    Loonz wrote:banyu w mnta lirik apology plz ..

    cz w aLEsana bgt

    enjoy

    Alesana - Apology

    sweat drips in my eyes
    screams of lust we cry
    tonight you are everything,
    you're everything to me...
    you're everything to me no more
    as I wake from this perfect dream
    I'll escape from Eden's walls
    can I not stay and live this lie?
    go away and I'll think only of myself

    and to think that you will not be scared or surprised if I'd severed all these ties
    this is the end...

    I'll lose myself in anguish for tonight
    help me get over you

    I feel so numb to see this bitter end of beautiful illusions...would this be the same?
    broken pieces will not mend to save our past now...go away...

    I'll lose myself in anguish for tonight
    help me get over you
    one last false apology
    help me get over you

    now we must let go
    urgency overwhelms me as I must restrain my flood of tears
    I refuse to be slave to your false beauty again

    I'll lose myself in anguish for tonight
    help me get over you
    one last false apology
    help me get over you

    In my mind blood drips from your eyes
    A beautiful last goodbye

    avatar
    Charven_Sajalah
    Advanced Poster
    Advanced Poster

    Number of posts : 112
    Age : 107
    Lokasi : Daerah Terpencil Yang Tak Akan Pernah Ditemukan
    Registration date : 2008-06-13

    Re: [Sharing] Lyrics, Chords, Tablature, etc.

    Post  Charven_Sajalah on Wed Jun 18, 2008 6:14 pm

    banyu...... minta lagu d'massive donk yang cinta ini membunuhku !
    avatar
    -rizuki-
    Admin
    Admin

    Number of posts : 75
    Age : 26
    Lokasi : In Front of My Computer Watching the Whole D*mn World
    Registration date : 2008-06-11

    Re: [Sharing] Lyrics, Chords, Tablature, etc.

    Post  -rizuki- on Wed Jun 18, 2008 7:36 pm

    Charven_Sajalah wrote:banyu...... minta lagu d'massive donk yang cinta ini membunuhku !

    lo minta lagunya apa lirknya?

    kalo lagunya ada di sini:
    avatar
    Charven_Sajalah
    Advanced Poster
    Advanced Poster

    Number of posts : 112
    Age : 107
    Lokasi : Daerah Terpencil Yang Tak Akan Pernah Ditemukan
    Registration date : 2008-06-13

    Re: [Sharing] Lyrics, Chords, Tablature, etc.

    Post  Charven_Sajalah on Wed Jun 18, 2008 7:43 pm

    gk minta lirik ataupun lagunya! gw minta daftar orang yang membenci d'masive !
    avatar
    -rizuki-
    Admin
    Admin

    Number of posts : 75
    Age : 26
    Lokasi : In Front of My Computer Watching the Whole D*mn World
    Registration date : 2008-06-11

    Re: [Sharing] Lyrics, Chords, Tablature, etc.

    Post  -rizuki- on Wed Jun 18, 2008 7:48 pm

    Charven_Sajalah wrote:gk minta lirik ataupun lagunya! gw minta daftar orang yang membenci d'masive !

    count me in lah ..
    avatar
    Charven_Sajalah
    Advanced Poster
    Advanced Poster

    Number of posts : 112
    Age : 107
    Lokasi : Daerah Terpencil Yang Tak Akan Pernah Ditemukan
    Registration date : 2008-06-13

    Re: [Sharing] Lyrics, Chords, Tablature, etc.

    Post  Charven_Sajalah on Wed Jun 18, 2008 7:53 pm

    -rizuki- wrote:
    Charven_Sajalah wrote:gk minta lirik ataupun lagunya! gw minta daftar orang yang membenci d'masive !

    count me in lah ..

    bole tuh!....
    avatar
    -rizuki-
    Admin
    Admin

    Number of posts : 75
    Age : 26
    Lokasi : In Front of My Computer Watching the Whole D*mn World
    Registration date : 2008-06-11

    Re: [Sharing] Lyrics, Chords, Tablature, etc.

    Post  -rizuki- on Thu Jul 03, 2008 11:40 pm

    tabnya bikinan gw, sori berantakan,

    Ten 2 Five - I Will Fly
    Code:

    Intro:
    E|---------------------------------------------------------|
    B|----11s12--12h13p12--------------------------------------|
    G|---------------------12-12--9-9--12--9-------------------|
    D|-----------------------------------------12-10-12-10--7--|
    A|---------------------------------------------------------|
    E|---------------------------------------------------------|

    E|------------------------------------------------------------|
    B|--------------9-12-9------------12h13p13--------------------|
    G|-12-10-12-10---------10-12-10------------12-12--9-9--12--9--|
    D|------------------------------------------------------------|
    A|------------------------------------------------------------|
    E|------------------------------------------------------------|

    E|-13-12-13-12----13-12-13-12-15b1/4--|
    B|-------------13---------------------|
    G|------------------------------------|
    D|------------------------------------|
    A|------------------------------------|
    E|------------------------------------|

    h = hammer on
    p = pull on
    s = slide
    b = bend


    yang laennya belon kelar .. males lanjutinnya ..

    chord aje yee..

    Code:

    Intro: C Em Dm G (2x)

    C                              Em
     You know all the things I've said
                                  Dm
    You know all the things that we have done
        G
    And things I gave to you

    C                              Em
     If theres a chance for me to say
                        Dm
    How precious you are in my life
        G                  Em
    And you know that its true

    (*)

      A7              Dm              G
    To be with you its all that I need
            Em      A7
    Coz with you my life seems brighter
        Dm                    G7
    And these are all the thing I wanna say

    Reff

    C            Em
    I will fly into your arms
        Dm                  G
    And be with you till the end of time
    C              Em
    Why are you so far away
                  Dm
    You know it's very hard for me
          G
    To get myself close to you

    Int: C Em Dm G

    C                          Em
     You're the reason why Ive stay
                              Dm
    You're the one who cannot I believe
          G
    Our love will never end

    C                  Em
     If its only in my dream
                              Dm
    You're the one who cannot see this
        G              Em
    How could you be so blind

    Back To : (*), Reff

    Musik : D F#m Em A

    Bridge:

    D
     I wanna get, I wanna get
    F#m                            Em A
     I wanna get myself close to you

    D            F#m
    I will fly into you arms
        Em                  A
    And be with you till the end of time

    D              F#m
    Why are you so far away
                  Em
    You know it's very hard for me
          A
    To get myself close to you

    D          F#m  Em  A
      oh oh oh oh ooo......

    D
     I wanna get, I wanna get
    F#m                            Em A
     I wanna get myself close to you
                                DMaj7
     I wanna get myself close to you...


    PS: Lagu yang mayan buat nyanyi depan cewe ..


    Last edited by -rizuki- on Tue Jul 08, 2008 9:04 pm; edited 1 time in total
    avatar
    Charven_Sajalah
    Advanced Poster
    Advanced Poster

    Number of posts : 112
    Age : 107
    Lokasi : Daerah Terpencil Yang Tak Akan Pernah Ditemukan
    Registration date : 2008-06-13

    Re: [Sharing] Lyrics, Chords, Tablature, etc.

    Post  Charven_Sajalah on Tue Jul 08, 2008 7:27 pm

    ten 2 five band indo bkn? br dngr!
    avatar
    -rizuki-
    Admin
    Admin

    Number of posts : 75
    Age : 26
    Lokasi : In Front of My Computer Watching the Whole D*mn World
    Registration date : 2008-06-11

    Re: [Sharing] Lyrics, Chords, Tablature, etc.

    Post  -rizuki- on Tue Jul 08, 2008 9:08 pm

    Charven_Sajalah wrote:ten 2 five band indo bkn? br dngr!
    iye, udah lama koq .
    aliran rada Pop-Jazz gitu, lagunya English semua kalo ga salah

    Sponsored content

    Re: [Sharing] Lyrics, Chords, Tablature, etc.

    Post  Sponsored content


      Current date/time is Wed Nov 21, 2018 8:01 pm